  0
SECTION
  2
HEADER
  9
$ACADVER
  1
AC1014
  9
$ACADMAINTVER
 70
     9
  9
$DWGCODEPAGE
  3
ANSI_932
  9
$INSBASE
 10
0.0
 20
0.0
 30
0.0
  9
$EXTMIN
 10
-1263.750710474412
 20
-871.9547415861514
 30
0.0
  9
$EXTMAX
 10
742.501420948824
 20
480.9094831723028
 30
0.0
  9
$LIMMIN
 10
-140.0
 20
-99.0
  9
$LIMMAX
 10
140.0
 20
99.0
  9
$ORTHOMODE
 70
     0
  9
$REGENMODE
 70
     1
  9
$FILLMODE
 70
     1
  9
$QTEXTMODE
 70
     0
  9
$MIRRTEXT
 70
     1
  9
$DRAGMODE
 70
     2
  9
$LTSCALE
 40
0.6666666666666666
  9
$OSMODE
 70
    37
  9
$ATTMODE
 70
     1
  9
$TEXTSIZE
 40
0.2
  9
$TRACEWID
 40
0.05
  9
$TEXTSTYLE
  7
STANDARD
  9
$CLAYER
  8
0
  9
$CELTYPE
  6
BYLAYER
  9
$CECOLOR
 62
   256
  9
$CELTSCALE
 40
1.0
  9
$DELOBJ
 70
     1
  9
$DISPSILH
 70
     0
  9
$DIMSCALE
 40
1.0
  9
$DIMASZ
 40
1.666666666666667
  9
$DIMEXO
 40
0.0625
  9
$DIMDLI
 40
0.38
  9
$DIMRND
 40
0.0
  9
$DIMDLE
 40
0.0
  9
$DIMEXE
 40
0.18
  9
$DIMTP
 40
0.0
  9
$DIMTM
 40
0.0
  9
$DIMTXT
 40
0.18
  9
$DIMCEN
 40
0.09
  9
$DIMTSZ
 40
0.0
  9
$DIMTOL
 70
     0
  9
$DIMLIM
 70
     0
  9
$DIMTIH
 70
     1
  9
$DIMTOH
 70
     1
  9
$DIMSE1
 70
     0
  9
$DIMSE2
 70
     0
  9
$DIMTAD
 70
     3
  9
$DIMZIN
 70
     0
  9
$DIMBLK
  1

  9
$DIMASO
 70
     1
  9
$DIMSHO
 70
     1
  9
$DIMPOST
  1

  9
$DIMAPOST
  1

  9
$DIMALT
 70
     0
  9
$DIMALTD
 70
     2
  9
$DIMALTF
 40
25.4
  9
$DIMLFAC
 40
1.0
  9
$DIMTOFL
 70
     0
  9
$DIMTVP
 40
0.0
  9
$DIMTIX
 70
     0
  9
$DIMSOXD
 70
     0
  9
$DIMSAH
 70
     0
  9
$DIMBLK1
  1

  9
$DIMBLK2
  1

  9
$DIMSTYLE
  2
STANDARD
  9
$DIMCLRD
 70
     0
  9
$DIMCLRE
 70
     0
  9
$DIMCLRT
 70
     0
  9
$DIMTFAC
 40
1.0
  9
$DIMGAP
 40
0.09
  9
$DIMJUST
 70
     0
  9
$DIMSD1
 70
     0
  9
$DIMSD2
 70
     0
  9
$DIMTOLJ
 70
     1
  9
$DIMTZIN
 70
     0
  9
$DIMALTZ
 70
     0
  9
$DIMALTTZ
 70
     0
  9
$DIMFIT
 70
     3
  9
$DIMUPT
 70
     0
  9
$DIMUNIT
 70
     2
  9
$DIMDEC
 70
     4
  9
$DIMTDEC
 70
     4
  9
$DIMALTU
 70
     2
  9
$DIMALTTD
 70
     2
  9
$DIMTXSTY
  7
STANDARD
  9
$DIMAUNIT
 70
     0
  9
$LUNITS
 70
     2
  9
$LUPREC
 70
     4
  9
$SKETCHINC
 40
0.1
  9
$FILLETRAD
 40
0.5
  9
$AUNITS
 70
     0
  9
$AUPREC
 70
     0
  9
$MENU
  1
.
  9
$ELEVATION
 40
0.0
  9
$PELEVATION
 40
0.0
  9
$THICKNESS
 40
0.0
  9
$LIMCHECK
 70
     0
  9
$CHAMFERA
 40
0.5
  9
$CHAMFERB
 40
0.5
  9
$CHAMFERC
 40
1.0
  9
$CHAMFERD
 40
0.0
  9
$SKPOLY
 70
     0
  9
$TDCREATE
 40
2456337.411731701
  9
$TDUPDATE
 40
2456337.411731713
  9
$TDINDWG
 40
0.0000000116
  9
$TDUSRTIMER
 40
0.0000000116
  9
$USRTIMER
 70
     1
  9
$ANGBASE
 50
0.0
  9
$ANGDIR
 70
     0
  9
$PDMODE
 70
     0
  9
$PDSIZE
 40
1.0
  9
$PLINEWID
 40
0.0
  9
$COORDS
 70
     1
  9
$SPLFRAME
 70
     0
  9
$SPLINETYPE
 70
     6
  9
$SPLINESEGS
 70
     8
  9
$ATTDIA
 70
     0
  9
$ATTREQ
 70
     1
  9
$HANDLING
 70
     1
  9
$HANDSEED
  5
150
  9
$SURFTAB1
 70
     6
  9
$SURFTAB2
 70
     6
  9
$SURFTYPE
 70
     6
  9
$SURFU
 70
     6
  9
$SURFV
 70
     6
  9
$UCSNAME
  2

  9
$UCSORG
 10
0.0
 20
0.0
 30
0.0
  9
$UCSXDIR
 10
1.0
 20
0.0
 30
0.0
  9
$UCSYDIR
 10
0.0
 20
1.0
 30
0.0
  9
$PUCSNAME
  2

  9
$PUCSORG
 10
0.0
 20
0.0
 30
0.0
  9
$PUCSXDIR
 10
1.0
 20
0.0
 30
0.0
  9
$PUCSYDIR
 10
0.0
 20
1.0
 30
0.0
  9
$USERI1
 70
     0
  9
$USERI2
 70
     0
  9
$USERI3
 70
     0
  9
$USERI4
 70
     0
  9
$USERI5
 70
     0
  9
$USERR1
 40
0.0
  9
$USERR2
 40
0.0
  9
$USERR3
 40
0.0
  9
$USERR4
 40
0.0
  9
$USERR5
 40
0.0
  9
$WORLDVIEW
 70
     1
  9
$SHADEDGE
 70
     3
  9
$SHADEDIF
 70
    70
  9
$TILEMODE
 70
     1
  9
$MAXACTVP
 70
    64
  9
$PINSBASE
 10
0.0
 20
0.0
 30
0.0
  9
$PLIMCHECK
 70
     0
  9
$PEXTMIN
 10
1.000000000000000E+20
 20
1.000000000000000E+20
 30
1.000000000000000E+20
  9
$PEXTMAX
 10
-1.000000000000000E+20
 20
-1.000000000000000E+20
 30
-1.000000000000000E+20
  9
$PLIMMIN
 10
0.0
 20
0.0
  9
$PLIMMAX
 10
12.0
 20
9.0
  9
$UNITMODE
 70
     0
  9
$VISRETAIN
 70
     0
  9
$PLINEGEN
 70
     1
  9
$PSLTSCALE
 70
     0
  9
$TREEDEPTH
 70
  3020
  9
$PICKSTYLE
 70
     1
  9
$CMLSTYLE
  2
STANDARD
  9
$CMLJUST
 70
     0
  9
$CMLSCALE
 40
1.0
  9
$PROXYGRAPHICS
 70
     0
  9
$MEASUREMENT
 70
     1
  0
ENDSEC
  0
SECTION
  2
CLASSES
  0
CLASS
  1
ACDBDICTIONARYWDFLT
  2
AcDbDictionaryWithDefault
  3
ObjectDBX Classes
 90
        0
280
     0
281
     0
  0
CLASS
  1
XRECORD
  2
AcDbXrecord
  3
AutoCAD 2000
 90
        0
280
     0
281
     0
  0
CLASS
  1
LWPOLYLINE
  2
AcDbPolyline
  3
AutoCAD 2000
 90
        0
280
     0
281
     1
  0
CLASS
  1
HATCH
  2
AcDbHatch
  3
AutoCAD 2000
 90
        0
280
     0
281
     1
  0
CLASS
  1
ACDBPLACEHOLDER
  2
AcDbPlaceHolder
  3
ObjectDBX Classes
 90
        0
280
     0
281
     0
  0
CLASS
  1
LAYOUT
  2
AcDbLayout
  3
ObjectDBX Classes
 90
        0
280
     0
281
     0
  0
ENDSEC
  0
SECTION
  2
TABLES
  0
TABLE
  2
VPORT
  5
8
330
0
100
AcDbSymbolTable
 70
     1
  0
VPORT
  5
29
330
8
100
AcDbSymbolTableRecord
100
AcDbViewportTableRecord
  2
*ACTIVE
 70
     0
 10
0.0
 20
0.0
 11
1.0
 21
1.0
 12
0.0
 22
0.0
 13
0.0
 23
0.0
 14
0.5
 24
0.5
 15
0.5
 25
0.5
 16
0.0
 26
0.0
 36
1.0
 17
-260.374644762794
 27
-196.7862376864702
 37
0.0
 40
456.3760751196007
 41
1.493539564941637
 42
50.0
 43
0.0
 44
0.0
 50
0.0
 51
0.0
 71
     0
 72
  1000
 73
     1
 74
     1
 75
     0
 76
     0
 77
     0
 78
     0
  0
ENDTAB
  0
TABLE
  2
LTYPE
  5
5
330
0
100
AcDbSymbolTable
 70
    28
  0
LTYPE
  5
14
330
5
100
AcDbSymbolTableRecord
100
AcDbLinetypeTableRecord
  2
BYBLOCK
 70
     0
  3

 72
    65
 73
     0
 40
0.0
  0
LTYPE
  5
15
330
5
100
AcDbSymbolTableRecord
100
AcDbLinetypeTableRecord
  2
BYLAYER
 70
     0
  3

 72
    65
 73
     0
 40
0.0
  0
LTYPE
  5
16
330
5
100
AcDbSymbolTableRecord
100
AcDbLinetypeTableRecord
  2
CONTINUOUS
 70
     0
  3
Solid line
 72
    65
 73
     0
 40
0.0
  0
LTYPE
  5
2B
330
5
100
AcDbSymbolTableRecord
100
AcDbLinetypeTableRecord
  2
HIDDENX2
 70
     0
  3
CADPAC LINETYPE
 72
    65
 73
     2
 40
6.0
 49
4.5
 74
     0
 49
-1.5
 74
     0
  0
LTYPE
  5
2C
330
5
100
AcDbSymbolTableRecord
100
AcDbLinetypeTableRecord
  2
HIDDEN
 70
     0
  3
CADPAC LINETYPE
 72
    65
 73
     2
 40
4.5
 49
3.0
 74
     0
 49
-1.5
 74
     0
  0
LTYPE
  5
2D
330
5
100
AcDbSymbolTableRecord
100
AcDbLinetypeTableRecord
  2
HIDDEN2
 70
     0
  3
CADPAC LINETYPE
 72
    65
 73
     2
 40
3.75
 49
2.25
 74
     0
 49
-1.5
 74
     0
  0
LTYPE
  5
2E
330
5
100
AcDbSymbolTableRecord
100
AcDbLinetypeTableRecord
  2
DASHED
 70
     0
  3
CADPAC LINETYPE
 72
    65
 73
     2
 40
4.200000000000017
 49
3.0
 74
     0
 49
-1.200000000000017
 74
     0
  0
LTYPE
  5
2F
330
5
100
AcDbSymbolTableRecord
100
AcDbLinetypeTableRecord
  2
DASHED2
 70
     0
  3
CADPAC LINETYPE
 72
    65
 73
     2
 40
2.700000000000017
 49
1.800000000000026
 74
     0
 49
-0.8999999999999915
 74
     0
  0
LTYPE
  5
30
330
5
100
AcDbSymbolTableRecord
100
AcDbLinetypeTableRecord
  2
DASHEDX2
 70
     0
  3
CADPAC LINETYPE
 72
    65
 73
     2
 40
7.200000000000017
 49
6.0
 74
     0
 49
-1.200000000000017
 74
     0
  0
LTYPE
  5
31
330
5
100
AcDbSymbolTableRecord
100
AcDbLinetypeTableRecord
  2
DOTX2
 70
     0
  3
CADPAC LINETYPE
 72
    65
 73
     2
 40
2.625000000000011
 49
0.0
 74
     0
 49
-2.625000000000011
 74
     0
  0
LTYPE
  5
32
330
5
100
AcDbSymbolTableRecord
100
AcDbLinetypeTableRecord
  2
DOT
 70
     0
  3
CADPAC LINETYPE
 72
    65
 73
     2
 40
2.100000000000009
 49
0.0
 74
     0
 49
-2.100000000000009
 74
     0
  0
LTYPE
  5
33
330
5
100
AcDbSymbolTableRecord
100
AcDbLinetypeTableRecord
  2
DOT2
 70
     0
  3
CADPAC LINETYPE
 72
    65
 73
     2
 40
1.575000000000006
 49
0.0
 74
     0
 49
-1.575000000000006
 74
     0
  0
LTYPE
  5
34
330
5
100
AcDbSymbolTableRecord
100
AcDbLinetypeTableRecord
  2
CENTERX2
 70
     0
  3
CADPAC LINETYPE
 72
    65
 73
     4
 40
9.0
 49
3.75
 74
     0
 49
-1.875
 74
     0
 49
1.5
 74
     0
 49
-1.875
 74
     0
  0
LTYPE
  5
35
330
5
100
AcDbSymbolTableRecord
100
AcDbLinetypeTableRecord
  2
CENTER
 70
     0
  3
CADPAC LINETYPE
 72
    65
 73
     4
 40
6.9
 49
3.0
 74
     0
 49
-1.5
 74
     0
 49
0.8999999999999999
 74
     0
 49
-1.5
 74
     0
  0
LTYPE
  5
36
330
5
100
AcDbSymbolTableRecord
100
AcDbLinetypeTableRecord
  2
CENTER2
 70
     0
  3
CADPAC LINETYPE
 72
    65
 73
     4
 40
4.8
 49
2.25
 74
     0
 49
-1.125
 74
     0
 49
0.3
 74
     0
 49
-1.125
 74
     0
  0
LTYPE
  5
37
330
5
100
AcDbSymbolTableRecord
100
AcDbLinetypeTableRecord
  2
DASHDOTX2
 70
     0
  3
CADPAC LINETYPE
 72
    65
 73
     4
 40
14.39999999999999
 49
7.200000000000017
 74
     0
 49
-2.399999999999992
 74
     0
 49
2.399999999999992
 74
     0
 49
-2.399999999999992
 74
     0
  0
LTYPE
  5
38
330
5
100
AcDbSymbolTableRecord
100
AcDbLinetypeTableRecord
  2
DASHDOT
 70
     0
  3
CADPAC LINETYPE
 72
    65
 73
     4
 40
7.20000000000006
 49
3.600000000000009
 74
     0
 49
-1.200000000000017
 74
     0
 49
1.200000000000017
 74
     0
 49
-1.200000000000017
 74
     0
  0
LTYPE
  5
39
330
5
100
AcDbSymbolTableRecord
100
AcDbLinetypeTableRecord
  2
DASHDOT2
 70
     0
  3
CADPAC LINETYPE
 72
    65
 73
     4
 40
4.620000000000034
 49
2.700000000000006
 74
     0
 49
-0.9000000000000128
 74
     0
 49
0.1200000000000017
 74
     0
 49
-0.9000000000000128
 74
     0
  0
LTYPE
  5
3A
330
5
100
AcDbSymbolTableRecord
100
AcDbLinetypeTableRecord
  2
DIVIDEX2
 70
     0
  3
CADPAC LINETYPE
 72
    65
 73
     6
 40
19.19999999999997
 49
7.200000000000017
 74
     0
 49
-2.399999999999992
 74
     0
 49
2.399999999999992
 74
     0
 49
-2.399999999999992
 74
     0
 49
2.399999999999992
 74
     0
 49
-2.399999999999992
 74
     0
  0
LTYPE
  5
3B
330
5
100
AcDbSymbolTableRecord
100
AcDbLinetypeTableRecord
  2
DIVIDE
 70
     0
  3
CADPAC LINETYPE
 72
    65
 73
     6
 40
9.600000000000094
 49
3.600000000000009
 74
     0
 49
-1.200000000000017
 74
     0
 49
1.200000000000017
 74
     0
 49
-1.200000000000017
 74
     0
 49
1.200000000000017
 74
     0
 49
-1.200000000000017
 74
     0
  0
LTYPE
  5
3C
330
5
100
AcDbSymbolTableRecord
100
AcDbLinetypeTableRecord
  2
DIVIDE2
 70
     0
  3
CADPAC LINETYPE
 72
    65
 73
     6
 40
7.20000000000007
 49
2.700000000000006
 74
     0
 49
-0.9000000000000128
 74
     0
 49
0.9000000000000128
 74
     0
 49
-0.9000000000000128
 74
     0
 49
0.9000000000000128
 74
     0
 49
-0.9000000000000128
 74
     0
  0
LTYPE
  5
3D
330
5
100
AcDbSymbolTableRecord
100
AcDbLinetypeTableRecord
  2
BORDERX2
 70
     0
  3
CADPAC LINETYPE
 72
    65
 73
     6
 40
13.125
 49
3.75
 74
     0
 49
-1.875
 74
     0
 49
3.75
 74
     0
 49
-1.875
 74
     0
 49
0.0
 74
     0
 49
-1.875
 74
     0
  0
LTYPE
  5
3E
330
5
100
AcDbSymbolTableRecord
100
AcDbLinetypeTableRecord
  2
BORDER
 70
     0
  3
CADPAC LINETYPE
 72
    65
 73
     6
 40
10.5
 49
3.0
 74
     0
 49
-1.5
 74
     0
 49
3.0
 74
     0
 49
-1.5
 74
     0
 49
0.0
 74
     0
 49
-1.5
 74
     0
  0
LTYPE
  5
3F
330
5
100
AcDbSymbolTableRecord
100
AcDbLinetypeTableRecord
  2
BORDER2
 70
     0
  3
CADPAC LINETYPE
 72
    65
 73
     6
 40
7.799999999999983
 49
2.399999999999992
 74
     0
 49
-1.5
 74
     0
 49
0.8999999999999915
 74
     0
 49
-1.5
 74
     0
 49
0.0
 74
     0
 49
-1.5
 74
     0
  0
LTYPE
  5
40
330
5
100
AcDbSymbolTableRecord
100
AcDbLinetypeTableRecord
  2
PHANTOMX2
 70
     0
  3
CADPAC LINETYPE
 72
    65
 73
     6
 40
11.25
 49
3.75
 74
     0
 49
-1.5
 74
     0
 49
1.5
 74
     0
 49
-1.5
 74
     0
 49
1.5
 74
     0
 49
-1.5
 74
     0
  0
LTYPE
  5
41
330
5
100
AcDbSymbolTableRecord
100
AcDbLinetypeTableRecord
  2
PHANTOM
 70
     0
  3
CADPAC LINETYPE
 72
    65
 73
     6
 40
9.300000000000001
 49
3.0
 74
     0
 49
-1.5
 74
     0
 49
0.8999999999999999
 74
     0
 49
-1.5
 74
     0
 49
0.8999999999999999
 74
     0
 49
-1.5
 74
     0
  0
LTYPE
  5
42
330
5
100
AcDbSymbolTableRecord
100
AcDbLinetypeTableRecord
  2
PHANTOM2
 70
     0
  3
CADPAC LINETYPE
 72
    65
 73
     6
 40
7.949999999999999
 49
2.25
 74
     0
 49
-1.5
 74
     0
 49
0.6000000000000001
 74
     0
 49
-1.5
 74
     0
 49
0.6000000000000001
 74
     0
 49
-1.5
 74
     0
  0
LTYPE
  5
43
330
5
100
AcDbSymbolTableRecord
100
AcDbLinetypeTableRecord
  2
ACAD_ISO06W100
 70
     0
  3
CADPAC LINETYPE
 72
    65
 73
     8
 40
15.89999999999999
 49
7.200000000000017
 74
     0
 49
-1.5
 74
     0
 49
0.8999999999999915
 74
     0
 49
-1.5
 74
     0
 49
0.8999999999999915
 74
     0
 49
-1.5
 74
     0
 49
0.8999999999999915
 74
     0
 49
-1.5
 74
     0
  0
LTYPE
  5
44
330
5
100
AcDbSymbolTableRecord
100
AcDbLinetypeTableRecord
  2
ACAD_ISO13W100
 70
     0
  3
CADPAC LINETYPE
 72
    65
 73
     8
 40
12.0
 49
3.0
 74
     0
 49
-1.5
 74
     0
 49
3.0
 74
     0
 49
-1.5
 74
     0
 49
0.0
 74
     0
 49
-1.5
 74
     0
 49
0.0
 74
     0
 49
-1.5
 74
     0
  0
LTYPE
  5
45
330
5
100
AcDbSymbolTableRecord
100
AcDbLinetypeTableRecord
  2
ACAD_ISO14W100
 70
     0
  3
CADPAC LINETYPE
 72
    65
 73
     8
 40
9.0
 49
3.0
 74
     0
 49
-1.5
 74
     0
 49
0.0
 74
     0
 49
-1.5
 74
     0
 49
0.0
 74
     0
 49
-1.5
 74
     0
 49
0.0
 74
     0
 49
-1.5
 74
     0
  0
ENDTAB
  0
TABLE
  2
LAYER
  5
2
330
0
100
AcDbSymbolTable
 70
     2
  0
LAYER
  5
10
330
2
100
AcDbSymbolTableRecord
100
AcDbLayerTableRecord
  2
0
 70
     0
 62
     7
  6
CONTINUOUS
  0
LAYER
  5
46
330
2
100
AcDbSymbolTableRecord
100
AcDbLayerTableRecord
  2
LAYER0016
 70
     0
 62
     7
  6
CONTINUOUS
  0
ENDTAB
  0
TABLE
  2
STYLE
  5
3
330
0
100
AcDbSymbolTable
 70
     2
  0
STYLE
  5
11
330
3
100
AcDbSymbolTableRecord
100
AcDbTextStyleTableRecord
  2
STANDARD
 70
     0
 40
0.0
 41
1.0
 50
0.0
 71
     0
 42
0.2
  3
txt
  4

  0
STYLE
  5
62
330
3
100
AcDbSymbolTableRecord
100
AcDbTextStyleTableRecord
  2
FDASTYLE0
 70
     0
 40
2.666666666666667
 41
0.7368421052631581
 50
0.0
 71
     0
 42
0.2
  3
txt.shx
  4
bigfont
  0
ENDTAB
  0
TABLE
  2
VIEW
  5
6
330
0
100
AcDbSymbolTable
 70
     0
  0
ENDTAB
  0
TABLE
  2
UCS
  5
7
330
0
100
AcDbSymbolTable
 70
     0
  0
ENDTAB
  0
TABLE
  2
APPID
  5
9
330
0
100
AcDbSymbolTable
 70
     2
  0
APPID
  5
12
330
9
100
AcDbSymbolTableRecord
100
AcDbRegAppTableRecord
  2
ACAD
 70
     0
  0
APPID
  5
2A
330
9
100
AcDbSymbolTableRecord
100
AcDbRegAppTableRecord
  2
DAFUSIONOUT
 70
     0
  0
ENDTAB
  0
TABLE
  2
DIMSTYLE
  5
A
330
0
100
AcDbSymbolTable
 70
     1
  0
DIMSTYLE
105
27
330
A
100
AcDbSymbolTableRecord
100
AcDbDimStyleTableRecord
  2
STANDARD
 70
     0
  3

  4

  5

  6

  7

 40
1.0
 41
0.18
 42
0.0625
 43
0.38
 44
0.18
 45
0.0
 46
0.0
 47
0.0
 48
0.0
140
0.18
141
0.09
142
0.0
143
25.4
144
1.0
145
0.0
146
1.0
147
0.09
 71
     0
 72
     0
 73
     1
 74
     1
 75
     0
 76
     0
 77
     0
 78
     0
170
     0
171
     2
172
     0
173
     0
174
     0
175
     0
176
     0
177
     0
178
     0
270
     2
271
     4
272
     4
273
     2
274
     2
340
11
275
     0
280
     0
281
     0
282
     0
283
     1
284
     0
285
     0
286
     0
287
     3
288
     0
  0
ENDTAB
  0
TABLE
  2
BLOCK_RECORD
  5
1
330
0
100
AcDbSymbolTable
 70
     8
  0
BLOCK_RECORD
  5
1F
330
1
100
AcDbSymbolTableRecord
100
AcDbBlockTableRecord
  2
*MODEL_SPACE
  0
BLOCK_RECORD
  5
1B
330
1
100
AcDbSymbolTableRecord
100
AcDbBlockTableRecord
  2
*PAPER_SPACE
  0
BLOCK_RECORD
  5
48
330
1
100
AcDbSymbolTableRecord
100
AcDbBlockTableRecord
  2
DA_IMAGEDIMGROUP_1
  0
BLOCK_RECORD
  5
4B
330
1
100
AcDbSymbolTableRecord
100
AcDbBlockTableRecord
  2
DA_IMAGEDIMGROUP_2
  0
BLOCK_RECORD
  5
4E
330
1
100
AcDbSymbolTableRecord
100
AcDbBlockTableRecord
  2
DA_IMAGEDIMGROUP_3
  0
BLOCK_RECORD
  5
51
330
1
100
AcDbSymbolTableRecord
100
AcDbBlockTableRecord
  2
DA_IMAGEDIMGROUP_4
  0
BLOCK_RECORD
  5
54
330
1
100
AcDbSymbolTableRecord
100
AcDbBlockTableRecord
  2
DA_IMAGEDIMGROUP_5
  0
BLOCK_RECORD
  5
5A
330
1
100
AcDbSymbolTableRecord
100
AcDbBlockTableRecord
  2
_OPEN30
  0
BLOCK_RECORD
  5
82
330
1
100
AcDbSymbolTableRecord
100
AcDbBlockTableRecord
  2
_DOT
  0
ENDTAB
  0
ENDSEC
  0
SECTION
  2
BLOCKS
  0
BLOCK
  5
20
330
1F
100
AcDbEntity
  8
0
100
AcDbBlockBegin
  2
*MODEL_SPACE
 70
     0
 71
     0
 10
0.0
 20
0.0
 30
0.0
  3
*MODEL_SPACE
  1

  0
ENDBLK
  5
21
330
1F
100
AcDbEntity
  8
0
100
AcDbBlockEnd
  0
BLOCK
  5
1C
330
1B
100
AcDbEntity
 67
     1
  8
0
100
AcDbBlockBegin
  2
*PAPER_SPACE
 70
     0
 71
     0
 10
0.0
 20
0.0
 30
0.0
  3
*PAPER_SPACE
  1

  0
ENDBLK
  5
1D
330
1B
100
AcDbEntity
 67
     1
  8
0
100
AcDbBlockEnd
  0
BLOCK
  5
49
330
48
100
AcDbEntity
  8
0
100
AcDbBlockBegin
  2
DA_IMAGEDIMGROUP_1
 70
     0
 71
     0
 10
0.0
 20
0.0
 30
0.0
  3
DA_IMAGEDIMGROUP_1
  1

  0
LINE
  5
57
330
48
100
AcDbEntity
  8
0
  6
CONTINUOUS
 62
     9
100
AcDbLine
 10
45.40560006279637
 20
-22.33914203960715
 30
0.0
 11
52.46235878405335
 21
-22.33914203960715
 31
0.0
  0
LINE
  5
58
330
48
100
AcDbEntity
  8
0
  6
CONTINUOUS
 62
     9
100
AcDbLine
 10
45.40560006279637
 20
12.86085796039285
 30
0.0
 11
52.46235878405335
 21
12.86085796039285
 31
0.0
  0
LINE
  5
59
330
48
100
AcDbEntity
  8
0
  6
CONTINUOUS
 62
     9
100
AcDbLine
 10
51.79569211738669
 20
-22.33914203960715
 30
0.0
 11
51.79569211738669
 21
12.86085796039285
 31
0.0
  0
INSERT
  5
60
330
48
100
AcDbEntity
  8
0
 62
     9
100
AcDbBlockReference
  2
_OPEN30
 10
51.79569211738669
 20
-22.33914203960715
 30
0.0
 41
2.000001858549576
 42
1.999992849318975
 50
270.0
  0
INSERT
  5
61
330
48
100
AcDbEntity
  8
0
 62
     9
100
AcDbBlockReference
  2
_OPEN30
 10
51.79569211738669
 20
12.86085796039285
 30
0.0
 41
2.000001858549576
 42
1.999992849318975
 50
90.0
  0
TEXT
  5
63
330
48
100
AcDbEntity
  8
0
 62
     7
100
AcDbText
 10
51.12902545072002
 20
-12.53914203960715
 30
0.0
 40
2.666666666666667
  1
（φ35.2）
 50
90.0
 41
0.7368421052631581
  7
FDASTYLE0
 72
     5
 11
51.12902545072002
 21
2.394191293726186
 31
0.0
100
AcDbText
  0
ENDBLK
  5
4A
330
48
100
AcDbEntity
  8
0
100
AcDbBlockEnd
  0
BLOCK
  5
4C
330
4B
100
AcDbEntity
  8
0
100
AcDbBlockBegin
  2
DA_IMAGEDIMGROUP_2
 70
     0
 71
     0
 10
0.0
 20
0.0
 30
0.0
  3
DA_IMAGEDIMGROUP_2
  1

  0
LINE
  5
64
330
4B
100
AcDbEntity
  8
0
  6
CONTINUOUS
 62
     9
100
AcDbLine
 10
45.3389333961297
 20
4.677524627059404
 30
0.0
 11
45.3389333961297
 21
19.2180351817969
 31
0.0
  0
LINE
  5
65
330
4B
100
AcDbEntity
  8
0
  6
CONTINUOUS
 62
     9
100
AcDbLine
 10
44.7389333961297
 20
14.42752462705948
 30
0.0
 11
44.7389333961297
 21
19.2180351817969
 31
0.0
  0
LINE
  5
66
330
4B
100
AcDbEntity
  8
0
  6
CONTINUOUS
 62
     9
100
AcDbLine
 10
44.7389333961297
 20
18.55136851513024
 30
0.0
 11
45.3389333961297
 21
18.55136851513024
 31
0.0
  0
LINE
  5
67
330
4B
100
AcDbEntity
  8
0
  6
CONTINUOUS
 62
     9
100
AcDbLine
 10
30.1404133961297
 20
18.55136851513024
 30
0.0
 11
44.7389333961297
 21
18.55136851513024
 31
0.0
  0
INSERT
  5
68
330
4B
100
AcDbEntity
  8
0
 62
     9
100
AcDbBlockReference
  2
_OPEN30
 10
44.7389333961297
 20
18.55136851513024
 30
0.0
 41
2.000001858549576
 42
1.999992849318975
 50
360.0
  0
LINE
  5
69
330
4B
100
AcDbEntity
  8
0
  6
CONTINUOUS
 62
     9
100
AcDbLine
 10
48.67226672946303
 20
18.55136851513024
 30
0.0
 11
45.3389333961297
 21
18.55136851513024
 31
0.0
  0
INSERT
  5
6A
330
4B
100
AcDbEntity
  8
0
 62
     9
100
AcDbBlockReference
  2
_OPEN30
 10
45.3389333961297
 20
18.55136851513024
 30
0.0
 41
2.000001858549576
 42
1.999992849318975
 50
180.0
  0
TEXT
  5
6B
330
4B
100
AcDbEntity
  8
0
 62
     7
100
AcDbText
 10
30.80708006279637
 20
19.2180351817969
 30
0.0
 40
2.666666666666667
  1
（0.6）
 41
0.7407407407407407
  7
FDASTYLE0
 72
     5
 11
41.47374672946303
 21
19.2180351817969
 31
0.0
100
AcDbText
  0
ENDBLK
  5
4D
330
4B
100
AcDbEntity
  8
0
100
AcDbBlockEnd
  0
BLOCK
  5
4F
330
4E
100
AcDbEntity
  8
0
100
AcDbBlockBegin
  2
DA_IMAGEDIMGROUP_3
 70
     0
 71
     0
 10
0.0
 20
0.0
 30
0.0
  3
DA_IMAGEDIMGROUP_3
  1

  0
LINE
  5
6C
330
4E
100
AcDbEntity
  8
0
  6
CONTINUOUS
 62
     9
100
AcDbLine
 10
-59.22981522819683
 20
16.75264320404241
 30
0.0
 11
-56.02986056574346
 21
11.21015914675627
 31
0.0
  0
LINE
  5
6D
330
4E
100
AcDbEntity
  8
0
  6
CONTINUOUS
 62
     9
100
AcDbLine
 10
-71.63810322398352
 20
-4.739142039607131
 30
0.0
 11
-67.98819389907681
 21
-4.739142039607131
 31
0.0
  0
ARC
  5
6E
330
4E
100
AcDbEntity
  8
0
  6
CONTINUOUS
 62
     9
100
AcDbCircle
 10
-46.82152723241013
 20
-4.739142039607131
 30
0.0
 40
24.14990932490672
100
AcDbArc
 50
120.0
 51
180.0
  0
INSERT
  5
6F
330
4E
100
AcDbEntity
  8
0
 62
     9
100
AcDbBlockReference
  2
_OPEN30
 10
-58.89648189486349
 20
16.17529293485279
 30
0.0
 41
2.000001858549576
 42
1.999992849318975
 50
32.37250644284752
  0
INSERT
  5
70
330
4E
100
AcDbEntity
  8
0
 62
     9
100
AcDbBlockReference
  2
_OPEN30
 10
-70.97143655731685
 20
-4.739142039607128
 30
0.0
 41
2.000001858549576
 42
1.999992849318975
 50
267.6274935571523
  0
TEXT
  5
71
330
4E
100
AcDbEntity
  8
0
 62
     7
100
AcDbText
 10
-70.97997914272634
 20
3.05034380266256
 30
0.0
 40
2.666666666666667
  1
6-60°
 50
60.00000000000001
 41
0.7692307692307692
  7
FDASTYLE0
 72
     5
 11
-65.64664580939301
 21
12.28794810969657
 31
0.0
100
AcDbText
  0
ENDBLK
  5
50
330
4E
100
AcDbEntity
  8
0
100
AcDbBlockEnd
  0
BLOCK
  5
52
330
51
100
AcDbEntity
  8
0
100
AcDbBlockBegin
  2
DA_IMAGEDIMGROUP_4
 70
     0
 71
     0
 10
0.0
 20
0.0
 30
0.0
  3
DA_IMAGEDIMGROUP_4
  1

  0
LINE
  5
72
330
51
100
AcDbEntity
  8
0
  6
CONTINUOUS
 62
     9
100
AcDbLine
 10
-57.33486882477264
 20
-16.1285954313332
 30
0.0
 11
-36.3081856400476
 21
6.650311352118933
 31
0.0
  0
LINE
  5
73
330
51
100
AcDbEntity
  8
0
  6
CONTINUOUS
 62
     9
100
AcDbLine
 10
-23.76097062345675
 20
20.24312762009237
 30
0.0
 11
-36.3081856400476
 21
6.650311352118933
 31
0.0
  0
INSERT
  5
74
330
51
100
AcDbEntity
  8
0
 62
     9
100
AcDbBlockReference
  2
_OPEN30
 10
-36.3081856400476
 20
6.650311352118933
 30
0.0
 41
2.000001858549576
 42
1.999992849318975
 50
227.2906100426386
  0
LINE
  5
75
330
51
100
AcDbEntity
  8
0
  6
CONTINUOUS
 62
     9
100
AcDbLine
 10
-59.59580250054952
 20
-18.57794024675816
 30
0.0
 11
-57.33486882477264
 21
-16.1285954313332
 31
0.0
  0
INSERT
  5
76
330
51
100
AcDbEntity
  8
0
 62
     9
100
AcDbBlockReference
  2
_OPEN30
 10
-57.33486882477264
 20
-16.1285954313332
 30
0.0
 41
2.000001858549576
 42
1.999992849318975
 50
47.29061004263863
  0
TEXT
  5
77
330
51
100
AcDbEntity
  8
0
 62
     7
100
AcDbText
 10
-33.25839935083685
 20
10.93712461059469
 30
0.0
 40
2.666666666666667
  1
φ31
 50
47.29061004263855
 41
0.75
  7
FDASTYLE0
 72
     5
 11
-28.91740669334524
 21
15.63986665621062
 31
0.0
100
AcDbText
  0
TEXT
  5
78
330
51
100
AcDbEntity
  8
0
 62
     7
100
AcDbText
 10
-29.73887926221084
 20
17.30542113069959
 30
0.0
 40
1.733333333333333
  1
±0.2
 50
47.29061004263855
 41
0.7619047619047623
  7
FDASTYLE0
 72
     5
 11
-25.97668562571811
 21
21.38113090356673
 31
0.0
100
AcDbText
  0
ENDBLK
  5
53
330
51
100
AcDbEntity
  8
0
100
AcDbBlockEnd
  0
BLOCK
  5
55
330
54
100
AcDbEntity
  8
0
100
AcDbBlockBegin
  2
DA_IMAGEDIMGROUP_5
 70
     0
 71
     0
 10
0.0
 20
0.0
 30
0.0
  3
DA_IMAGEDIMGROUP_5
  1

  0
LINE
  5
79
330
54
100
AcDbEntity
  8
0
  6
CONTINUOUS
 62
     9
100
AcDbLine
 10
42.53893339612969
 20
-23.00580870627382
 30
0.0
 11
42.53893339612969
 21
-29.95474158615136
 31
0.0
  0
LINE
  5
7A
330
54
100
AcDbEntity
  8
0
  6
CONTINUOUS
 62
     9
100
AcDbLine
 10
37.23893339612971
 20
-8.525808706273812
 30
0.0
 11
37.23893339612971
 21
-29.95474158615136
 31
0.0
  0
LINE
  5
7B
330
54
100
AcDbEntity
  8
0
  6
CONTINUOUS
 62
     9
100
AcDbLine
 10
37.23893339612971
 20
-29.2880749194847
 30
0.0
 11
42.53893339612969
 21
-29.2880749194847
 31
0.0
  0
LINE
  5
7C
330
54
100
AcDbEntity
  8
0
  6
CONTINUOUS
 62
     9
100
AcDbLine
 10
44.7389333961297
 20
-23.90580870627384
 30
0.0
 11
44.7389333961297
 21
-29.95474158615136
 31
0.0
  0
LINE
  5
7D
330
54
100
AcDbEntity
  8
0
  6
CONTINUOUS
 62
     9
100
AcDbLine
 10
21.36041339612972
 20
-29.28807491948469
 30
0.0
 11
37.23893339612971
 21
-29.2880749194847
 31
0.0
  0
INSERT
  5
7E
330
54
100
AcDbEntity
  8
0
 62
     9
100
AcDbBlockReference
  2
_OPEN30
 10
37.23893339612971
 20
-29.2880749194847
 30
0.0
 41
2.000001858549576
 42
1.999992849318975
 50
360.0
  0
LINE
  5
7F
330
54
100
AcDbEntity
  8
0
  6
CONTINUOUS
 62
     9
100
AcDbLine
 10
54.40412006279637
 20
-29.2880749194847
 30
0.0
 11
44.7389333961297
 21
-29.2880749194847
 31
0.0
  0
INSERT
  5
80
330
54
100
AcDbEntity
  8
0
 62
     9
100
AcDbBlockReference
  2
_OPEN30
 10
44.7389333961297
 20
-29.2880749194847
 30
0.0
 41
2.000001858549576
 42
1.999992849318975
 50
180.0
  0
LINE
  5
81
330
54
100
AcDbEntity
  8
0
  6
CONTINUOUS
 62
     9
100
AcDbLine
 10
42.53893339612969
 20
-29.2880749194847
 30
0.0
 11
44.7389333961297
 21
-29.2880749194847
 31
0.0
  0
INSERT
  5
87
330
54
100
AcDbEntity
  8
0
 62
     9
100
AcDbBlockReference
  2
_DOT
 10
42.53893339612969
 20
-29.2880749194847
 30
0.0
 41
1.666666666666667
 42
1.666666666666667
 50
180.0
  0
TEXT
  5
88
330
54
100
AcDbEntity
  8
0
 62
     7
100
AcDbText
 10
22.02708006279638
 20
-28.62140825281803
 30
0.0
 40
2.666666666666667
  1
5.3
 41
0.7999999999999998
  7
FDASTYLE0
 72
     5
 11
28.42708006279638
 21
-28.62140825281803
 31
0.0
100
AcDbText
  0
TEXT
  5
89
330
54
100
AcDbEntity
  8
0
 62
     7
100
AcDbText
 10
29.09374672946305
 20
-26.88807491948469
 30
0.0
 40
1.733333333333333
  1
±0.2
 41
0.7619047619047624
  7
FDASTYLE0
 72
     5
 11
34.64041339612972
 21
-26.88807491948469
 31
0.0
100
AcDbText
  0
TEXT
  5
8A
330
54
100
AcDbEntity
  8
0
 62
     7
100
AcDbText
 10
47.3374533961297
 20
-28.62140825281803
 30
0.0
 40
2.666666666666667
  1
2.2
 41
0.7999999999999998
  7
FDASTYLE0
 72
     5
 11
53.7374533961297
 21
-28.62140825281803
 31
0.0
100
AcDbText
  0
ENDBLK
  5
56
330
54
100
AcDbEntity
  8
0
100
AcDbBlockEnd
  0
BLOCK
  5
5B
330
5A
100
AcDbEntity
  8
0
100
AcDbBlockBegin
  2
_OPEN30
 70
     0
 71
     0
 10
0.0
 20
0.0
 30
0.0
  3
_OPEN30
  1

  0
LINE
  5
5D
330
5A
100
AcDbEntity
  8
0
  6
BYBLOCK
 62
     0
100
AcDbLine
 10
-1.0
 20
0.267949
 30
0.0
 11
0.0
 21
0.0
 31
0.0
  0
LINE
  5
5E
330
5A
100
AcDbEntity
  8
0
  6
BYBLOCK
 62
     0
100
AcDbLine
 10
0.0
 20
0.0
 30
0.0
 11
-1.0
 21
-0.267949
 31
0.0
  0
LINE
  5
5F
330
5A
100
AcDbEntity
  8
0
  6
BYBLOCK
 62
     0
100
AcDbLine
 10
0.0
 20
0.0
 30
0.0
 11
-1.0
 21
0.0
 31
0.0
  0
ENDBLK
  5
5C
330
5A
100
AcDbEntity
  8
0
100
AcDbBlockEnd
  0
BLOCK
  5
83
330
82
100
AcDbEntity
  8
0
100
AcDbBlockBegin
  2
_DOT
 70
     0
 71
     0
 10
0.0
 20
0.0
 30
0.0
  3
_DOT
  1

  0
LWPOLYLINE
  5
85
330
82
100
AcDbEntity
  8
0
  6
BYBLOCK
 62
     0
100
AcDbPolyline
 90
        2
 70
     1
 43
0.5
 10
-0.25
 20
0.0
 42
1.0
 10
0.25
 20
0.0
 42
1.0
  0
LINE
  5
86
330
82
100
AcDbEntity
  8
0
  6
BYBLOCK
 62
     0
100
AcDbLine
 10
-0.5
 20
0.0
 30
0.0
 11
-1.0
 21
0.0
 31
0.0
  0
ENDBLK
  5
84
330
82
100
AcDbEntity
  8
0
100
AcDbBlockEnd
  0
ENDSEC
  0
SECTION
  2
ENTITIES
  0
POINT
  5
8B
330
1F
100
AcDbEntity
  8
0
  6
CONTINUOUS
 62
     5
100
AcDbPoint
 10
-594.5
 20
-420.5
 30
0.0
  0
LINE
  5
8C
330
1F
100
AcDbEntity
  8
0
  6
CONTINUOUS
 62
     3
100
AcDbLine
 10
12.2389333961297
 20
-2.73914203960717
 30
0.0
 11
12.2389333961297
 21
7.260857960392865
 31
0.0
  0
LINE
  5
8D
330
1F
100
AcDbEntity
  8
0
  6
CONTINUOUS
 62
     3
100
AcDbLine
 10
12.2389333961297
 20
7.260857960392865
 30
0.0
 11
13.23893339612971
 21
8.260857960392865
 31
0.0
  0
LINE
  5
8E
330
1F
100
AcDbEntity
  8
0
  6
CONTINUOUS
 62
     3
100
AcDbLine
 10
12.2389333961297
 20
-2.73914203960717
 30
0.0
 11
13.23893339612972
 21
-3.739142039607135
 31
0.0
  0
LINE
  5
8F
330
1F
100
AcDbEntity
  8
0
  6
CONTINUOUS
 62
     3
100
AcDbLine
 10
13.23893339612972
 20
-3.739142039607163
 30
0.0
 11
13.23893339612971
 21
8.260857960392865
 31
0.0
  0
LINE
  5
90
330
1F
100
AcDbEntity
  8
0
  6
CONTINUOUS
 62
     3
100
AcDbLine
 10
18.2389333961297
 20
8.260857960392837
 30
0.0
 11
13.23893339612971
 21
8.260857960392865
 31
0.0
  0
LINE
  5
91
330
1F
100
AcDbEntity
  8
0
  6
CONTINUOUS
 62
     3
100
AcDbLine
 10
18.23893339612971
 20
-3.739142039607128
 30
0.0
 11
13.23893339612972
 21
-3.739142039607135
 31
0.0
  0
LINE
  5
92
330
1F
100
AcDbEntity
  8
0
  6
CONTINUOUS
 62
     3
100
AcDbLine
 10
18.23893339612974
 20
-23.23914203960715
 30
0.0
 11
18.23893339612969
 21
13.76085796039288
 31
0.0
  0
LINE
  5
93
330
1F
100
AcDbEntity
  8
0
  6
CONTINUOUS
 62
     3
100
AcDbLine
 10
-2.761066603870239
 20
4.760857960392808
 30
0.0
 11
-2.761066603870209
 21
0.0608579603929051
 31
0.0
  0
LINE
  5
94
330
1F
100
AcDbEntity
  8
0
  6
CONTINUOUS
 62
     3
100
AcDbLine
 10
-2.761066603870209
 20
0.0608579603929051
 30
0.0
 11
-1.96106660387019
 21
-0.7391420396071489
 31
0.0
  0
LINE
  5
95
330
1F
100
AcDbEntity
  8
0
  6
CONTINUOUS
 62
     3
100
AcDbLine
 10
9.238933396129745
 20
4.7608579603929
 30
0.0
 11
9.238933396129756
 21
5.260857960392865
 31
0.0
  0
LINE
  5
96
330
1F
100
AcDbEntity
  8
0
  6
CONTINUOUS
 62
     3
100
AcDbLine
 10
12.23893339612976
 20
-0.7391420396070778
 30
0.0
 11
-1.96106660387019
 21
-0.7391420396071844
 31
0.0
  0
LINE
  5
97
330
1F
100
AcDbEntity
  8
0
  6
CONTINUOUS
 62
     3
100
AcDbLine
 10
9.238933396129756
 20
5.260857960392865
 30
0.0
 11
12.23893339612971
 21
5.26085796039288
 31
0.0
  0
LINE
  5
98
330
1F
100
AcDbEntity
  8
0
  6
CONTINUOUS
 62
     3
100
AcDbLine
 10
-1.96106660387019
 20
-0.7391420396071844
 30
0.0
 11
-1.96106660387019
 21
4.760857960392814
 31
0.0
  0
LINE
  5
99
330
1F
100
AcDbEntity
  8
0
  6
CONTINUOUS
 62
     3
100
AcDbLine
 10
9.238933396129745
 20
4.7608579603929
 30
0.0
 11
-2.761066603870239
 21
4.760857960392808
 31
0.0
  0
CIRCLE
  5
9A
330
1F
100
AcDbEntity
  8
0
  6
CONTINUOUS
 62
     3
100
AcDbCircle
 10
-46.82152723241006
 20
2.260857960392869
 30
0.0
 40
3.0
  0
CIRCLE
  5
9B
330
1F
100
AcDbEntity
  8
0
  6
CONTINUOUS
 62
     3
100
AcDbCircle
 10
-46.82152723241006
 20
2.260857960392869
 30
0.0
 40
6.0
  0
ARC
  5
9C
330
1F
100
AcDbEntity
  8
0
  6
CONTINUOUS
 62
     3
100
AcDbCircle
 10
-46.82152723241006
 20
2.260857960392869
 30
0.0
 40
8.5
100
AcDbArc
 50
168.9785503644832
 51
371.0214496355168
  0
ARC
  5
9D
330
1F
100
AcDbEntity
  8
0
  6
CONTINUOUS
 62
     3
100
AcDbCircle
 10
-46.82152723241012
 20
-4.739142039607131
 30
0.0
 40
12.0
100
AcDbArc
 50
134.0486256740844
 51
405.9513743259157
  0
CIRCLE
  5
9E
330
1F
100
AcDbEntity
  8
0
  6
CONTINUOUS
 62
     3
100
AcDbCircle
 10
-46.82152723241006
 20
2.260857960392869
 30
0.0
 40
5.199999999999999
  0
CIRCLE
  5
9F
330
1F
100
AcDbEntity
  8
0
  6
CONTINUOUS
 62
     3
100
AcDbCircle
 10
-54.57152723241012
 20
8.684251719051673
 30
0.0
 40
1.2
  0
CIRCLE
  5
A0
330
1F
100
AcDbEntity
  8
0
  6
CONTINUOUS
 62
     3
100
AcDbCircle
 10
-39.07152723241012
 20
8.684251719051673
 30
0.0
 40
1.2
  0
CIRCLE
  5
A1
330
1F
100
AcDbEntity
  8
0
  6
CONTINUOUS
 62
     3
100
AcDbCircle
 10
-31.32152723241012
 20
-4.739142039607131
 30
0.0
 40
1.2
  0
CIRCLE
  5
A2
330
1F
100
AcDbEntity
  8
0
  6
CONTINUOUS
 62
     3
100
AcDbCircle
 10
-39.07152723241011
 20
-18.16253579826592
 30
0.0
 40
1.2
  0
CIRCLE
  5
A3
330
1F
100
AcDbEntity
  8
0
  6
CONTINUOUS
 62
     3
100
AcDbCircle
 10
-54.57152723241012
 20
-18.16253579826592
 30
0.0
 40
1.2
  0
CIRCLE
  5
A4
330
1F
100
AcDbEntity
  8
0
  6
CONTINUOUS
 62
     3
100
AcDbCircle
 10
-62.32152723241012
 20
-4.739142039607131
 30
0.0
 40
1.2
  0
CIRCLE
  5
A5
330
1F
100
AcDbEntity
  8
0
  6
CONTINUOUS
 62
     3
100
AcDbCircle
 10
-46.82152723241012
 20
-4.739142039607131
 30
0.0
 40
18.5
  0
ARC
  5
A6
330
1F
100
AcDbEntity
  8
0
  6
CONTINUOUS
 62
     3
100
AcDbCircle
 10
-46.82152723241006
 20
2.260857960392869
 30
0.0
 40
2.300000000000001
100
AcDbArc
 50
101.968745554686
 51
438.0312544453141
  0
LINE
  5
A7
330
1F
100
AcDbEntity
  8
0
  6
CONTINUOUS
 62
     3
100
AcDbLine
 10
-44.83721374911161
 20
4.510857960392869
 30
0.0
 11
-48.80584071570851
 21
4.510857960392869
 31
0.0
  0
LINE
  5
A8
330
1F
100
AcDbEntity
  8
0
  6
CENTER
 62
     9
100
AcDbLine
 10
-3.761066603870267
 20
2.260857960392839
 30
0.0
 11
19.23893339612977
 21
2.260857960392885
 31
0.0
  0
LINE
  5
A9
330
1F
100
AcDbEntity
  8
0
  6
CENTER
 62
     9
100
AcDbLine
 10
16.23893339612971
 20
-4.739142039607149
 30
0.0
 11
46.7389333961297
 21
-4.739142039607149
 31
0.0
  0
LINE
  5
AA
330
1F
100
AcDbEntity
  8
0
  6
CENTER
 62
     9
100
AcDbLine
 10
43.68319774746519
 20
-20.23914203960723
 30
0.0
 11
46.50550250936996
 21
-20.23914203960723
 31
0.0
  0
LINE
  5
AB
330
1F
100
AcDbEntity
  8
0
  6
CENTER
 62
     9
100
AcDbLine
 10
43.68319774746519
 20
3.010857960392739
 30
0.0
 11
46.50550250936996
 21
3.010857960392739
 31
0.0
  0
LINE
  5
AC
330
1F
100
AcDbEntity
  8
0
  6
CENTER
 62
     9
100
AcDbLine
 10
-40.32152723241006
 20
-15.99747228880482
 30
0.0
 11
-37.82152723241006
 21
-20.327599307727
 31
0.0
  0
CIRCLE
  5
AD
330
1F
100
AcDbEntity
  8
0
  6
CENTER
 62
     9
100
AcDbCircle
 10
-46.82152723241012
 20
-4.739142039607131
 30
0.0
 40
15.5
  0
LINE
  5
AE
330
1F
100
AcDbEntity
  8
0
  6
CENTER
 62
     9
100
AcDbLine
 10
-54.82152723241006
 20
2.260857960392869
 30
0.0
 11
-39.12118487517415
 21
2.260857960392869
 31
0.0
  0
LINE
  5
AF
330
1F
100
AcDbEntity
  8
0
  6
CENTER
 62
     9
100
AcDbLine
 10
-53.44652723241012
 20
6.735694560536672
 30
0.0
 11
-55.69652723241012
 21
10.63280887756665
 31
0.0
  0
LINE
  5
B0
330
1F
100
AcDbEntity
  8
0
  6
CENTER
 62
     9
100
AcDbLine
 10
-53.44652723241006
 20
-16.21397863975095
 30
0.0
 11
-55.69652723241006
 21
-20.11109295678091
 31
0.0
  0
LINE
  5
B1
330
1F
100
AcDbEntity
  8
0
  6
CENTER
 62
     9
100
AcDbLine
 10
-31.01656361334403
 20
4.385857960392855
 30
0.0
 11
-35.77970333415846
 21
1.635857960392869
 31
0.0
  0
LINE
  5
B2
330
1F
100
AcDbEntity
  8
0
  6
CENTER
 62
     9
100
AcDbLine
 10
-62.62649085147615
 20
4.38585796039294
 30
0.0
 11
-57.86335113066173
 21
1.635857960392926
 31
0.0
  0
LINE
  5
B3
330
1F
100
AcDbEntity
  8
0
  6
CENTER
 62
     9
100
AcDbLine
 10
-40.19978973060586
 20
6.730043747901817
 30
0.0
 11
-37.83983096252553
 21
10.81761223798461
 31
0.0
  0
LINE
  5
B4
330
1F
100
AcDbEntity
  8
0
  6
CENTER
 62
     9
100
AcDbLine
 10
-67.32152723241013
 20
-4.739142039607131
 30
0.0
 11
-26.32152723241012
 21
-4.739142039607131
 31
0.0
  0
LINE
  5
B5
330
1F
100
AcDbEntity
  8
0
  6
CENTER
 62
     9
100
AcDbLine
 10
-46.82152723241012
 20
15.76085796039287
 30
0.0
 11
-46.82152723241012
 21
-25.23914203960713
 31
0.0
  0
LINE
  5
B6
330
1F
100
AcDbEntity
  8
0
  6
DIVIDE
 62
     9
100
AcDbLine
 10
37.23893339612971
 20
-1.619142039607137
 30
0.0
 11
37.23893339612971
 21
-7.859142039607146
 31
0.0
  0
LINE
  5
B7
330
1F
100
AcDbEntity
  8
0
  6
DIVIDE
 62
     9
100
AcDbLine
 10
37.23893339612971
 20
-1.619142039607137
 30
0.0
 11
41.23893339612974
 21
-1.61914203960708
 31
0.0
  0
LINE
  5
B8
330
1F
100
AcDbEntity
  8
0
  6
DIVIDE
 62
     9
100
AcDbLine
 10
37.23893339612971
 20
-7.859142039607146
 30
0.0
 11
41.23893339612974
 21
-7.859142039607146
 31
0.0
  0
LINE
  5
B9
330
1F
100
AcDbEntity
  8
0
  6
DIVIDE
 62
     9
100
AcDbLine
 10
41.23893339612974
 20
-1.61914203960708
 30
0.0
 11
41.23893339612974
 21
-7.859142039607146
 31
0.0
  0
LINE
  5
BA
330
1F
100
AcDbEntity
  8
0
  6
DASHED2
 62
     9
100
AcDbLine
 10
42.53893339612969
 20
12.86085796039285
 30
0.0
 11
44.7389333961297
 21
12.86085796039285
 31
0.0
  0
LINE
  5
BB
330
1F
100
AcDbEntity
  8
0
  6
DASHED2
 62
     9
100
AcDbLine
 10
42.53893339612969
 20
12.86085796039285
 30
0.0
 11
42.53893339612969
 21
-22.33914203960715
 31
0.0
  0
LINE
  5
BC
330
1F
100
AcDbEntity
  8
0
  6
DASHED2
 62
     9
100
AcDbLine
 10
42.53893339612969
 20
-22.33914203960715
 30
0.0
 11
44.7389333961297
 21
-22.33914203960715
 31
0.0
  0
LINE
  5
BD
330
1F
100
AcDbEntity
  8
0
  6
DASHED2
 62
     9
100
AcDbLine
 10
44.7389333961297
 20
4.010857960392738
 30
0.0
 11
42.53893339612969
 21
4.010857960392738
 31
0.0
  0
LINE
  5
BE
330
1F
100
AcDbEntity
  8
0
  6
DASHED2
 62
     9
100
AcDbLine
 10
44.73893339612971
 20
3.760857960392738
 30
0.0
 11
42.53893339612969
 21
3.760857960392738
 31
0.0
  0
LINE
  5
BF
330
1F
100
AcDbEntity
  8
0
  6
DASHED2
 62
     9
100
AcDbLine
 10
44.73893339612971
 20
2.260857960392738
 30
0.0
 11
42.53893339612969
 21
2.260857960392738
 31
0.0
  0
LINE
  5
C0
330
1F
100
AcDbEntity
  8
0
  6
DASHED2
 62
     9
100
AcDbLine
 10
44.7389333961297
 20
2.010857960392738
 30
0.0
 11
42.53893339612969
 21
2.010857960392738
 31
0.0
  0
LINE
  5
C1
330
1F
100
AcDbEntity
  8
0
  6
DASHED2
 62
     9
100
AcDbLine
 10
44.7389333961297
 20
-21.23914203960713
 30
0.0
 11
42.53893339612969
 21
-21.23914203960713
 31
0.0
  0
LINE
  5
C2
330
1F
100
AcDbEntity
  8
0
  6
DASHED2
 62
     9
100
AcDbLine
 10
44.7389333961297
 20
-20.98914203960713
 30
0.0
 11
42.53893339612969
 21
-20.98914203960713
 31
0.0
  0
LINE
  5
C3
330
1F
100
AcDbEntity
  8
0
  6
DASHED2
 62
     9
100
AcDbLine
 10
44.7389333961297
 20
-19.48914203960713
 30
0.0
 11
42.53893339612969
 21
-19.48914203960713
 31
0.0
  0
LINE
  5
C4
330
1F
100
AcDbEntity
  8
0
  6
DASHED2
 62
     9
100
AcDbLine
 10
44.7389333961297
 20
-19.23914203960713
 30
0.0
 11
42.53893339612969
 21
-19.23914203960713
 31
0.0
  0
LINE
  5
C5
330
1F
100
AcDbEntity
  8
0
  6
CONTINUOUS
 62
     9
100
AcDbLine
 10
50.56398821700344
 20
18.55136851513024
 30
0.0
 11
73.75071047441197
 21
18.55136851513024
 31
0.0
  0
CIRCLE
  5
C6
330
1F
100
AcDbEntity
  8
0
  6
CONTINUOUS
 62
     9
100
AcDbCircle
 10
-54.57152723241012
 20
8.684251719051673
 30
0.0
 40
1.5
  0
CIRCLE
  5
C7
330
1F
100
AcDbEntity
  8
0
  6
CONTINUOUS
 62
     9
100
AcDbCircle
 10
-39.07152723241012
 20
8.684251719051673
 30
0.0
 40
1.5
  0
CIRCLE
  5
C8
330
1F
100
AcDbEntity
  8
0
  6
CONTINUOUS
 62
     9
100
AcDbCircle
 10
-31.32152723241012
 20
-4.739142039607131
 30
0.0
 40
1.5
  0
CIRCLE
  5
C9
330
1F
100
AcDbEntity
  8
0
  6
CONTINUOUS
 62
     9
100
AcDbCircle
 10
-39.07152723241011
 20
-18.16253579826592
 30
0.0
 40
1.5
  0
CIRCLE
  5
CA
330
1F
100
AcDbEntity
  8
0
  6
CONTINUOUS
 62
     9
100
AcDbCircle
 10
-54.57152723241012
 20
-18.16253579826592
 30
0.0
 40
1.5
  0
CIRCLE
  5
CB
330
1F
100
AcDbEntity
  8
0
  6
CONTINUOUS
 62
     9
100
AcDbCircle
 10
-62.32152723241012
 20
-4.739142039607131
 30
0.0
 40
1.5
  0
LINE
  5
CC
330
1F
100
AcDbEntity
  8
0
  6
CONTINUOUS
 62
     9
100
AcDbLine
 10
-25.32152723241012
 20
-4.739142039607131
 30
0.0
 11
-22.82152723241009
 21
-4.739142039607117
 31
0.0
  0
LINE
  5
CD
330
1F
100
AcDbEntity
  8
0
  6
CONTINUOUS
 62
     9
100
AcDbLine
 10
-37.82152723241006
 20
2.260857960392869
 30
0.0
 11
-22.82152723241012
 21
2.260857960392869
 31
0.0
  0
LINE
  5
CE
330
1F
100
AcDbEntity
  8
0
  6
CONTINUOUS
 62
     9
100
AcDbLine
 10
45.3389333961297
 20
4.010857960392738
 30
0.0
 11
50.56398821700344
 21
18.55136851513024
 31
0.0
  0
INSERT
  5
CF
330
1F
100
AcDbEntity
  8
0
 62
     9
100
AcDbBlockReference
  2
_OPEN30
 10
45.3389333961297
 20
4.010857960392738
 30
0.0
 41
2.000001858549576
 42
1.999992849318975
 50
250.2343708641691
  0
LINE
  5
D0
330
1F
100
AcDbEntity
  8
0
  6
CONTINUOUS
 62
     9
100
AcDbLine
 10
-62.58358775597762
 20
-6.216072736013544
 30
0.0
 11
-70.58486206416875
 21
-30.28612402633419
 31
0.0
  0
INSERT
  5
D1
330
1F
100
AcDbEntity
  8
0
 62
     9
100
AcDbBlockReference
  2
_OPEN30
 10
-62.58358775597762
 20
-6.216072736013544
 30
0.0
 41
2.000001858549576
 42
1.999992849318975
 50
71.61235871249035
  0
LINE
  5
D2
330
1F
100
AcDbEntity
  8
0
  6
CONTINUOUS
 62
     9
100
AcDbLine
 10
-23.32152723241012
 20
-4.73914203960716
 30
0.0
 11
-23.32152723241012
 21
2.260857960392869
 31
0.0
  0
INSERT
  5
D3
330
1F
100
AcDbEntity
  8
0
 62
     9
100
AcDbBlockReference
  2
_OPEN30
 10
-23.32152723241012
 20
-4.73914203960716
 30
0.0
 41
2.000001858549576
 42
1.999992849318975
 50
270.0
  0
INSERT
  5
D4
330
1F
100
AcDbEntity
  8
0
 62
     9
100
AcDbBlockReference
  2
_OPEN30
 10
-23.32152723241012
 20
2.260857960392869
 30
0.0
 41
2.000001858549576
 42
1.999992849318975
 50
90.0
  0
LINE
  5
D5
330
1F
100
AcDbEntity
  8
0
  6
CONTINUOUS
 62
     9
100
AcDbLine
 10
-2.761066603870273
 20
5.010857960392865
 30
0.0
 11
-2.761066603870273
 21
19.26085796039288
 31
0.0
  0
LINE
  5
D6
330
1F
100
AcDbEntity
  8
0
  6
CONTINUOUS
 62
     9
100
AcDbLine
 10
9.238933396129756
 20
5.760857960392865
 30
0.0
 11
9.238933396129756
 21
19.26085796039288
 31
0.0
  0
LINE
  5
D7
330
1F
100
AcDbEntity
  8
0
  6
CONTINUOUS
 62
     9
100
AcDbLine
 10
-2.761066603870273
 20
5.010857960392865
 30
0.0
 11
-2.761066603870273
 21
24.26085796039288
 31
0.0
  0
LINE
  5
D8
330
1F
100
AcDbEntity
  8
0
  6
CONTINUOUS
 62
     9
100
AcDbLine
 10
12.2389333961297
 20
7.760857960392865
 30
0.0
 11
12.2389333961297
 21
24.26085796039288
 31
0.0
  0
LINE
  5
D9
330
1F
100
AcDbEntity
  8
0
  6
CONTINUOUS
 62
     9
100
AcDbLine
 10
18.23893339612969
 20
14.26085796039288
 30
0.0
 11
18.23893339612969
 21
24.26085796039288
 31
0.0
  0
LINE
  5
DA
330
1F
100
AcDbEntity
  8
0
  6
CONTINUOUS
 62
     9
100
AcDbLine
 10
44.7389333961297
 20
14.26085796039282
 30
0.0
 11
44.7389333961297
 21
24.26085796039282
 31
0.0
  0
LINE
  5
DB
330
1F
100
AcDbEntity
  8
0
  6
CONTINUOUS
 62
     9
100
AcDbLine
 10
-3.261066603870239
 20
4.760857960392808
 30
0.0
 11
-7.261066603870223
 21
4.760857960392808
 31
0.0
  0
LINE
  5
DC
330
1F
100
AcDbEntity
  8
0
  6
CONTINUOUS
 62
     9
100
AcDbLine
 10
-6.761066603870223
 20
-0.7391420396071844
 30
0.0
 11
-6.761066603870223
 21
4.760857960392808
 31
0.0
  0
LINE
  5
DD
330
1F
100
AcDbEntity
  8
0
  6
CONTINUOUS
 62
     9
100
AcDbLine
 10
-2.46106660387019
 20
-0.7391420396071844
 30
0.0
 11
-12.26106660387022
 21
-0.7391420396071844
 31
0.0
  0
LINE
  5
DE
330
1F
100
AcDbEntity
  8
0
  6
CONTINUOUS
 62
     9
100
AcDbLine
 10
8.738933396129756
 20
5.260857960392865
 30
0.0
 11
-12.26106660387022
 21
5.260857960392865
 31
0.0
  0
LINE
  5
DF
330
1F
100
AcDbEntity
  8
0
  6
CONTINUOUS
 62
     9
100
AcDbLine
 10
-11.76106660387022
 20
-0.7391420396071844
 30
0.0
 11
-11.76106660387022
 21
5.260857960392865
 31
0.0
  0
LINE
  5
E0
330
1F
100
AcDbEntity
  8
0
  6
CONTINUOUS
 62
     9
100
AcDbLine
 10
12.73893339612971
 20
8.260857960392865
 30
0.0
 11
-17.26106660387022
 21
8.260857960392865
 31
0.0
  0
LINE
  5
E1
330
1F
100
AcDbEntity
  8
0
  6
CONTINUOUS
 62
     9
100
AcDbLine
 10
12.73893339612972
 20
-3.739142039607135
 30
0.0
 11
-17.26106660387022
 21
-3.739142039607135
 31
0.0
  0
LINE
  5
E2
330
1F
100
AcDbEntity
  8
0
  6
CONTINUOUS
 62
     9
100
AcDbLine
 10
45.26653958335167
 20
13.76085796039288
 30
0.0
 11
57.39399503994825
 21
13.76085796039288
 31
0.0
  0
LINE
  5
E3
330
1F
100
AcDbEntity
  8
0
  6
CONTINUOUS
 62
     9
100
AcDbLine
 10
45.26653958335167
 20
-23.23914203960715
 30
0.0
 11
57.39399503994825
 21
-23.23914203960715
 31
0.0
  0
LINE
  5
E4
330
1F
100
AcDbEntity
  8
0
  6
CONTINUOUS
 62
     9
100
AcDbLine
 10
-70.58486206416875
 20
-30.28612402633419
 30
0.0
 11
-21.8422096121949
 21
-30.28612402633419
 31
0.0
  0
LINE
  5
E5
330
1F
100
AcDbEntity
  8
0
  6
CONTINUOUS
 62
     9
100
AcDbLine
 10
-2.761066603870273
 20
18.76085796039288
 30
0.0
 11
9.238933396129756
 21
18.76085796039288
 31
0.0
  0
INSERT
  5
E6
330
1F
100
AcDbEntity
  8
0
 62
     9
100
AcDbBlockReference
  2
_OPEN30
 10
-2.761066603870273
 20
18.76085796039288
 30
0.0
 41
2.000001858549576
 42
1.999992849318975
 50
180.0
  0
INSERT
  5
E7
330
1F
100
AcDbEntity
  8
0
 62
     9
100
AcDbBlockReference
  2
_OPEN30
 10
9.238933396129756
 20
18.76085796039288
 30
0.0
 41
2.000001858549576
 42
1.999992849318975
 50
360.0
  0
LINE
  5
E8
330
1F
100
AcDbEntity
  8
0
  6
CONTINUOUS
 62
     9
100
AcDbLine
 10
-2.761066603870273
 20
23.76085796039288
 30
0.0
 11
12.2389333961297
 21
23.76085796039288
 31
0.0
  0
INSERT
  5
E9
330
1F
100
AcDbEntity
  8
0
 62
     9
100
AcDbBlockReference
  2
_OPEN30
 10
-2.761066603870273
 20
23.76085796039288
 30
0.0
 41
2.000001858549576
 42
1.999992849318975
 50
180.0
  0
INSERT
  5
EA
330
1F
100
AcDbEntity
  8
0
 62
     9
100
AcDbBlockReference
  2
_OPEN30
 10
12.2389333961297
 20
23.76085796039288
 30
0.0
 41
2.000001858549576
 42
1.999992849318975
 50
360.0
  0
LINE
  5
EB
330
1F
100
AcDbEntity
  8
0
  6
CONTINUOUS
 62
     9
100
AcDbLine
 10
12.2389333961297
 20
23.76085796039288
 30
0.0
 11
18.23893339612969
 21
23.76085796039288
 31
0.0
  0
INSERT
  5
EC
330
1F
100
AcDbEntity
  8
0
 62
     9
100
AcDbBlockReference
  2
_OPEN30
 10
12.2389333961297
 20
23.76085796039288
 30
0.0
 41
2.000001858549576
 42
1.999992849318975
 50
180.0
  0
INSERT
  5
ED
330
1F
100
AcDbEntity
  8
0
 62
     9
100
AcDbBlockReference
  2
_OPEN30
 10
18.23893339612969
 20
23.76085796039288
 30
0.0
 41
2.000001858549576
 42
1.999992849318975
 50
360.0
  0
LINE
  5
EE
330
1F
100
AcDbEntity
  8
0
  6
CONTINUOUS
 62
     9
100
AcDbLine
 10
18.23893339612969
 20
23.76085796039288
 30
0.0
 11
44.7389333961297
 21
23.76085796039288
 31
0.0
  0
INSERT
  5
EF
330
1F
100
AcDbEntity
  8
0
 62
     9
100
AcDbBlockReference
  2
_OPEN30
 10
18.23893339612969
 20
23.76085796039288
 30
0.0
 41
2.000001858549576
 42
1.999992849318975
 50
180.0
  0
INSERT
  5
F0
330
1F
100
AcDbEntity
  8
0
 62
     9
100
AcDbBlockReference
  2
_OPEN30
 10
44.7389333961297
 20
23.76085796039288
 30
0.0
 41
2.000001858549576
 42
1.999992849318975
 50
360.0
  0
LINE
  5
F1
330
1F
100
AcDbEntity
  8
0
  6
CONTINUOUS
 62
     9
100
AcDbLine
 10
-16.76106660387022
 20
-3.739142039607135
 30
0.0
 11
-16.76106660387022
 21
8.260857960392865
 31
0.0
  0
INSERT
  5
F2
330
1F
100
AcDbEntity
  8
0
 62
     9
100
AcDbBlockReference
  2
_OPEN30
 10
-16.76106660387022
 20
-3.739142039607135
 30
0.0
 41
2.000001858549576
 42
1.999992849318975
 50
270.0
  0
INSERT
  5
F3
330
1F
100
AcDbEntity
  8
0
 62
     9
100
AcDbBlockReference
  2
_OPEN30
 10
-16.76106660387022
 20
8.260857960392865
 30
0.0
 41
2.000001858549576
 42
1.999992849318975
 50
90.0
  0
LINE
  5
F4
330
1F
100
AcDbEntity
  8
0
  6
CONTINUOUS
 62
     9
100
AcDbLine
 10
56.72732837328159
 20
-23.23914203960715
 30
0.0
 11
56.72732837328159
 21
13.76085796039288
 31
0.0
  0
INSERT
  5
F5
330
1F
100
AcDbEntity
  8
0
 62
     9
100
AcDbBlockReference
  2
_OPEN30
 10
56.72732837328159
 20
-23.23914203960715
 30
0.0
 41
2.000001858549576
 42
1.999992849318975
 50
270.0
  0
INSERT
  5
F6
330
1F
100
AcDbEntity
  8
0
 62
     9
100
AcDbBlockReference
  2
_OPEN30
 10
56.72732837328159
 20
13.76085796039288
 30
0.0
 41
2.000001858549576
 42
1.999992849318975
 50
90.0
  0
LINE
  5
F7
330
1F
100
AcDbEntity
  8
0
  6
CONTINUOUS
 62
     9
100
AcDbLine
 10
-6.761066603870222
 20
25.92752462705951
 30
0.0
 11
-6.761066603870223
 21
4.760857960392808
 31
0.0
  0
INSERT
  5
F8
330
1F
100
AcDbEntity
  8
0
 62
     9
100
AcDbBlockReference
  2
_OPEN30
 10
-6.761066603870223
 20
4.760857960392808
 30
0.0
 41
2.000001858549576
 42
1.999992849318975
 50
270.0
  0
LINE
  5
F9
330
1F
100
AcDbEntity
  8
0
  6
CONTINUOUS
 62
     9
100
AcDbLine
 10
-6.761066603870223
 20
-3.239142039607184
 30
0.0
 11
-6.761066603870223
 21
-0.7391420396071844
 31
0.0
  0
INSERT
  5
FA
330
1F
100
AcDbEntity
  8
0
 62
     9
100
AcDbBlockReference
  2
_OPEN30
 10
-6.761066603870223
 20
-0.7391420396071844
 30
0.0
 41
2.000001858549576
 42
1.999992849318975
 50
90.0
  0
LINE
  5
FB
330
1F
100
AcDbEntity
  8
0
  6
CONTINUOUS
 62
     9
100
AcDbLine
 10
-11.76106660387022
 20
25.18085796039284
 30
0.0
 11
-11.76106660387022
 21
5.260857960392865
 31
0.0
  0
INSERT
  5
FC
330
1F
100
AcDbEntity
  8
0
 62
     9
100
AcDbBlockReference
  2
_OPEN30
 10
-11.76106660387022
 20
5.260857960392865
 30
0.0
 41
2.000001858549576
 42
1.999992849318975
 50
270.0
  0
LINE
  5
FD
330
1F
100
AcDbEntity
  8
0
  6
CONTINUOUS
 62
     9
100
AcDbLine
 10
-11.76106660387022
 20
-3.239142039607184
 30
0.0
 11
-11.76106660387022
 21
-0.7391420396071844
 31
0.0
  0
INSERT
  5
FE
330
1F
100
AcDbEntity
  8
0
 62
     9
100
AcDbBlockReference
  2
_OPEN30
 10
-11.76106660387022
 20
-0.7391420396071844
 30
0.0
 41
2.000001858549576
 42
1.999992849318975
 50
90.0
  0
TEXT
  5
FF
330
1F
100
AcDbEntity
  8
0
 62
     7
100
AcDbText
 10
1.105600062796409
 20
19.26085796039288
 30
0.0
 40
2.666666666666667
  1
12
 41
0.7999999999999998
  7
FDASTYLE0
 72
     5
 11
5.372266729463075
 21
19.26085796039288
 31
0.0
100
AcDbText
  0
TEXT
  5
100
330
1F
100
AcDbEntity
  8
0
 62
     7
100
AcDbText
 10
2.605600062796381
 20
24.26085796039288
 30
0.0
 40
2.666666666666667
  1
15
 41
0.7999999999999998
  7
FDASTYLE0
 72
     5
 11
6.872266729463046
 21
24.26085796039288
 31
0.0
100
AcDbText
  0
TEXT
  5
101
330
1F
100
AcDbEntity
  8
0
 62
     7
100
AcDbText
 10
14.17226672946303
 20
24.26085796039288
 30
0.0
 40
2.666666666666667
  1
6
 41
0.7999999999999998
  7
FDASTYLE0
 72
     5
 11
16.30560006279637
 21
24.26085796039288
 31
0.0
100
AcDbText
  0
TEXT
  5
102
330
1F
100
AcDbEntity
  8
0
 62
     7
100
AcDbText
 10
27.22226672946303
 20
24.26085796039288
 30
0.0
 40
2.666666666666667
  1
26.5
 41
0.7999999999999998
  7
FDASTYLE0
 72
     5
 11
35.75560006279636
 21
24.26085796039288
 31
0.0
100
AcDbText
  0
TEXT
  5
103
330
1F
100
AcDbEntity
  8
0
 62
     7
100
AcDbText
 10
-7.261066603870223
 20
11.26085796039284
 30
0.0
 40
2.666666666666667
  1
5.5
 50
90.0
 41
0.7999999999999998
  7
FDASTYLE0
 72
     5
 11
-7.261066603870223
 21
17.66085796039284
 31
0.0
100
AcDbText
  0
TEXT
  5
104
330
1F
100
AcDbEntity
  8
0
 62
     7
100
AcDbText
 10
-8.994399937203555
 20
18.32752462705951
 30
0.0
 40
1.733333333333333
  1
±0.15
 50
90.0
 41
0.7692307692307693
  7
FDASTYLE0
 72
     5
 11
-8.994399937203555
 21
25.26085796039284
 31
0.0
100
AcDbText
  0
TEXT
  5
105
330
1F
100
AcDbEntity
  8
0
 62
     7
100
AcDbText
 10
-12.26106660387022
 20
11.26085796039284
 30
0.0
 40
2.666666666666667
  1
φ6
 50
90.0
 41
0.7272727272727272
  7
FDASTYLE0
 72
     5
 11
-12.26106660387022
 21
15.52752462705951
 31
0.0
100
AcDbText
  0
TEXT
  5
106
330
1F
100
AcDbEntity
  8
0
 62
     7
100
AcDbText
 10
-13.99439993720356
 20
16.19419129372617
 30
0.0
 40
1.733333333333333
  1
　0
 50
90.0
 41
0.7272727272727273
  7
FDASTYLE0
 72
     5
 11
-13.99439993720356
 21
18.96752462705951
 31
0.0
100
AcDbText
  0
TEXT
  5
107
330
1F
100
AcDbEntity
  8
0
 62
     7
100
AcDbText
 10
-12.12773327053689
 20
16.19419129372617
 30
0.0
 40
1.733333333333333
  1
-0.015
 50
90.0
 41
0.8
  7
FDASTYLE0
 72
     5
 11
-12.12773327053689
 21
24.51419129372617
 31
0.0
100
AcDbText
  0
TEXT
  5
108
330
1F
100
AcDbEntity
  8
0
 62
     7
100
AcDbText
 10
-17.26106660387022
 20
-3.689142039607134
 30
0.0
 40
2.666666666666667
  1
φ12
 50
90.0
 41
0.7499999999999999
  7
FDASTYLE0
 72
     5
 11
-17.26106660387022
 21
2.710857960392865
 31
0.0
100
AcDbText
  0
TEXT
  5
109
330
1F
100
AcDbEntity
  8
0
 62
     7
100
AcDbText
 10
-18.99439993720356
 20
3.377524627059532
 30
0.0
 40
1.733333333333333
  1
　0
 50
90.0
 41
0.7272727272727273
  7
FDASTYLE0
 72
     5
 11
-18.99439993720356
 21
6.150857960392865
 31
0.0
100
AcDbText
  0
TEXT
  5
10A
330
1F
100
AcDbEntity
  8
0
 62
     7
100
AcDbText
 10
-17.12773327053689
 20
3.377524627059531
 30
0.0
 40
1.733333333333333
  1
-0.05
 50
90.0
 41
0.7999999999999999
  7
FDASTYLE0
 72
     5
 11
-17.12773327053689
 21
10.31085796039286
 31
0.0
100
AcDbText
  0
TEXT
  5
10B
330
1F
100
AcDbEntity
  8
0
 62
     7
100
AcDbText
 10
56.22732837328159
 20
-7.939142039607138
 30
0.0
 40
2.666666666666667
  1
φ37
 50
90.0
 41
0.7500000000000007
  7
FDASTYLE0
 72
     5
 11
56.22732837328159
 21
-1.539142039607132
 31
0.0
100
AcDbText
  0
TEXT
  5
10C
330
1F
100
AcDbEntity
  8
0
 62
     7
100
AcDbText
 10
54.49399503994826
 20
-0.8724753729404648
 30
0.0
 40
1.733333333333333
  1
±0.5
 50
90.0
 41
0.7619047619047619
  7
FDASTYLE0
 72
     5
 11
54.49399503994826
 21
4.674191293726202
 31
0.0
100
AcDbText
  0
TEXT
  5
10D
330
1F
100
AcDbEntity
  8
0
 62
     7
100
AcDbText
 10
50.90696837583449
 20
19.19154073749372
 30
0.0
 40
2.666666666666667
  1
3-M2(P=0.4)
 41
0.8000000000000004
  7
FDASTYLE0
 72
     5
 11
74.37363504250116
 21
19.19154073749372
 31
0.0
100
AcDbText
  0
TEXT
  5
10E
330
1F
100
AcDbEntity
  8
0
 62
     7
100
AcDbText
 10
-24.57152723241012
 20
-2.305808706273828
 30
0.0
 40
2.666666666666667
  1
7
 50
90.00000000000006
 41
0.8000000000000007
  7
FDASTYLE0
 72
     5
 11
-24.57152723241012
 21
-0.1724753729404931
 31
0.0
100
AcDbText
  0
TEXT
  5
10F
330
1F
100
AcDbEntity
  8
0
 62
     7
100
AcDbText
 10
-67.74370708311294
 20
-29.5861240263342
 30
0.0
 40
2.666666666666667
  1
6-Ｍ3（Ｐ＝0.5）ＤＥＰＴＨ　4ＭＡＸ
 41
0.7058823529411765
  7
FDASTYLE0
 72
     5
 11
-22.94370708311294
 21
-29.5861240263342
 31
0.0
100
AcDbText
  0
TEXT
  5
110
330
1F
100
AcDbEntity
  8
0
 62
     7
100
AcDbText
 10
10.72040740472863
 20
-32.93512973283837
 30
0.0
 40
2.666666666666667
  1
（ＰＩＮＩＯＮ　ＰＯＳＩＴＩＯＮ）
 41
0.6666666666666667
  7
FDASTYLE0
 72
     5
 11
46.9870740713953
 21
-32.93512973283837
 31
0.0
100
AcDbText
  0
LINE
  5
111
330
1F
100
AcDbEntity
  8
0
  6
CONTINUOUS
 62
     3
100
AcDbLine
 10
18.23893339612977
 20
13.76085796039282
 30
0.0
 11
44.7389333961297
 21
13.76085796039282
 31
0.0
  0
LINE
  5
112
330
1F
100
AcDbEntity
  8
0
  6
CONTINUOUS
 62
     3
100
AcDbLine
 10
18.23893339612977
 20
13.76085796039284
 30
0.0
 11
18.23893339612976
 21
-23.23914203960716
 31
0.0
  0
LINE
  5
113
330
1F
100
AcDbEntity
  8
0
  6
CONTINUOUS
 62
     3
100
AcDbLine
 10
18.23893339612977
 20
-23.23914203960717
 30
0.0
 11
44.7389333961297
 21
-23.23914203960717
 31
0.0
  0
LINE
  5
114
330
1F
100
AcDbEntity
  8
0
  6
CONTINUOUS
 62
     3
100
AcDbLine
 10
44.7389333961297
 20
13.76085796039282
 30
0.0
 11
44.7389333961297
 21
-23.23914203960717
 31
0.0
  0
CIRCLE
  5
115
330
1F
100
AcDbEntity
  8
0
  6
CONTINUOUS
 62
     3
100
AcDbCircle
 10
-60.24492099106891
 20
3.010857960392897
 30
0.0
 40
2.0
  0
CIRCLE
  5
116
330
1F
100
AcDbEntity
  8
0
  6
CONTINUOUS
 62
     3
100
AcDbCircle
 10
-60.24492099106882
 20
3.010857960392954
 30
0.0
 40
1.75
  0
LINE
  5
117
330
1F
100
AcDbEntity
  8
0
  6
CONTINUOUS
 62
     3
100
AcDbLine
 10
-59.9861019459664
 20
2.04493213410386
 30
0.0
 11
-60.50374003617142
 21
3.97678378668202
 31
0.0
  0
LINE
  5
118
330
1F
100
AcDbEntity
  8
0
  6
CONTINUOUS
 62
     3
100
AcDbLine
 10
-61.21084681735792
 20
2.752038915290441
 30
0.0
 11
-59.27899516477979
 21
3.269677005495524
 31
0.0
  0
CIRCLE
  5
119
330
1F
100
AcDbEntity
  8
0
  6
CONTINUOUS
 62
     3
100
AcDbCircle
 10
-33.39813347375123
 20
3.010857960392769
 30
0.0
 40
2.0
  0
CIRCLE
  5
11A
330
1F
100
AcDbEntity
  8
0
  6
CONTINUOUS
 62
     3
100
AcDbCircle
 10
-46.82152723241005
 20
-20.23914203960719
 30
0.0
 40
2.0
  0
CIRCLE
  5
11B
330
1F
100
AcDbEntity
  8
0
  6
CONTINUOUS
 62
     3
100
AcDbCircle
 10
-33.39813347375123
 20
3.010857960392912
 30
0.0
 40
1.75
  0
LINE
  5
11C
330
1F
100
AcDbEntity
  8
0
  6
CONTINUOUS
 62
     3
100
AcDbLine
 10
-32.43220764746214
 20
2.752038915290314
 30
0.0
 11
-34.36405930004027
 21
3.269677005495339
 31
0.0
  0
LINE
  5
11D
330
1F
100
AcDbEntity
  8
0
  6
CONTINUOUS
 62
     3
100
AcDbLine
 10
-33.65695251885371
 20
2.044932134103846
 30
0.0
 11
-33.13931442864869
 21
3.976783786681949
 31
0.0
  0
LINE
  5
11E
330
1F
100
AcDbEntity
  8
0
  6
CONTINUOUS
 62
     3
100
AcDbLine
 10
-46.11442045122351
 20
-20.94624882079373
 30
0.0
 11
-47.52863401359662
 21
-19.53203525842064
 31
0.0
  0
LINE
  5
11F
330
1F
100
AcDbEntity
  8
0
  6
CONTINUOUS
 62
     3
100
AcDbLine
 10
-47.52863401359656
 20
-20.94624882079366
 30
0.0
 11
-46.11442045122345
 21
-19.53203525842056
 31
0.0
  0
CIRCLE
  5
120
330
1F
100
AcDbEntity
  8
0
  6
CONTINUOUS
 62
     3
100
AcDbCircle
 10
-46.82152723241001
 20
-20.23914203960712
 30
0.0
 40
1.75
  0
LINE
  5
121
330
1F
100
AcDbEntity
  8
LAYER0016
  6
CONTINUOUS
 62
     9
100
AcDbLine
 10
44.73893339612971
 20
-19.48914203960713
 30
0.0
 11
45.3389333961297
 21
-19.48914203960713
 31
0.0
  0
LINE
  5
122
330
1F
100
AcDbEntity
  8
LAYER0016
  6
CONTINUOUS
 62
     9
100
AcDbLine
 10
44.73893339612971
 20
-20.98914203960713
 30
0.0
 11
45.3389333961297
 21
-20.98914203960713
 31
0.0
  0
LINE
  5
123
330
1F
100
AcDbEntity
  8
LAYER0016
  6
CONTINUOUS
 62
     9
100
AcDbLine
 10
44.73893339612971
 20
3.760857960392738
 30
0.0
 11
45.3389333961297
 21
3.760857960392738
 31
0.0
  0
LINE
  5
124
330
1F
100
AcDbEntity
  8
LAYER0016
  6
CONTINUOUS
 62
     9
100
AcDbLine
 10
44.73893339612971
 20
2.260857960392738
 30
0.0
 11
45.3389333961297
 21
2.260857960392738
 31
0.0
  0
LINE
  5
125
330
1F
100
AcDbEntity
  8
LAYER0016
  6
CONTINUOUS
 62
     3
100
AcDbLine
 10
44.73893339612971
 20
-19.23914203960713
 30
0.0
 11
45.3389333961297
 21
-19.23914203960713
 31
0.0
  0
LINE
  5
126
330
1F
100
AcDbEntity
  8
LAYER0016
  6
CONTINUOUS
 62
     3
100
AcDbLine
 10
44.73893339612971
 20
-21.23914203960713
 30
0.0
 11
45.3389333961297
 21
-21.23914203960713
 31
0.0
  0
LINE
  5
127
330
1F
100
AcDbEntity
  8
LAYER0016
  6
CONTINUOUS
 62
     3
100
AcDbLine
 10
45.33893339612969
 20
-19.23914203960713
 30
0.0
 11
45.33893339612969
 21
-21.23914203960713
 31
0.0
  0
LINE
  5
128
330
1F
100
AcDbEntity
  8
LAYER0016
  6
CONTINUOUS
 62
     3
100
AcDbLine
 10
44.73893339612971
 20
4.010857960392738
 30
0.0
 11
45.3389333961297
 21
4.010857960392738
 31
0.0
  0
LINE
  5
129
330
1F
100
AcDbEntity
  8
LAYER0016
  6
CONTINUOUS
 62
     3
100
AcDbLine
 10
44.73893339612971
 20
2.010857960392738
 30
0.0
 11
45.3389333961297
 21
2.010857960392738
 31
0.0
  0
LINE
  5
12A
330
1F
100
AcDbEntity
  8
LAYER0016
  6
CONTINUOUS
 62
     3
100
AcDbLine
 10
45.33893339612969
 20
4.010857960392738
 30
0.0
 11
45.33893339612969
 21
2.010857960392738
 31
0.0
  0
INSERT
  5
12B
330
1F
100
AcDbEntity
  8
0
  6
CONTINUOUS
100
AcDbBlockReference
  2
DA_IMAGEDIMGROUP_1
 10
0.0
 20
0.0
 30
0.0
  0
INSERT
  5
12C
330
1F
100
AcDbEntity
  8
0
  6
CONTINUOUS
100
AcDbBlockReference
  2
DA_IMAGEDIMGROUP_2
 10
0.0
 20
0.0
 30
0.0
  0
INSERT
  5
12D
330
1F
100
AcDbEntity
  8
0
  6
CONTINUOUS
100
AcDbBlockReference
  2
DA_IMAGEDIMGROUP_3
 10
0.0
 20
0.0
 30
0.0
  0
INSERT
  5
12E
330
1F
100
AcDbEntity
  8
0
  6
CONTINUOUS
100
AcDbBlockReference
  2
DA_IMAGEDIMGROUP_4
 10
0.0
 20
0.0
 30
0.0
  0
INSERT
  5
12F
330
1F
100
AcDbEntity
  8
0
  6
CONTINUOUS
100
AcDbBlockReference
  2
DA_IMAGEDIMGROUP_5
 10
0.0
 20
0.0
 30
0.0
  0
VIEWPORT
  5
47
330
1B
100
AcDbEntity
 67
     1
  8
0
100
AcDbViewport
 10
-260.624644762794
 20
-195.5226292069243
 30
0.0
 40
2006.252131423236
 41
1352.864224758454
 68
     1
 69
     1
1001
ACAD
1000
MVIEW
1002
{
1070
    16
1010
0.0
1020
0.0
1030
0.0
1010
0.0
1020
0.0
1030
1.0
1040
0.0
1040
1352.864224758454
1040
-260.624644762794
1040
-195.5226292069243
1040
50.0
1040
0.0
1040
0.0
1070
     0
1070
   100
1070
     0
1070
     1
1070
     0
1070
     0
1070
     0
1070
     0
1040
0.0
1040
0.0
1040
0.0
1040
0.5
1040
0.5
1040
0.0
1040
0.0
1070
     0
1002
{
1002
}
1002
}
  0
ENDSEC
  0
SECTION
  2
OBJECTS
  0
DICTIONARY
  5
C
330
0
100
AcDbDictionary
  3
ACAD_GROUP
350
D
  3
ACAD_LAYOUT
350
1A
  3
ACAD_MLINESTYLE
350
17
  3
ACAD_PLOTSETTINGS
350
19
  3
ACDBHEADERROUNDTRIPXREC
350
130
  0
DICTIONARY
  5
D
102
{ACAD_REACTORS
330
C
102
}
330
C
100
AcDbDictionary
  0
DICTIONARY
  5
1A
102
{ACAD_REACTORS
330
C
102
}
330
C
100
AcDbDictionary
  0
DICTIONARY
  5
17
102
{ACAD_REACTORS
330
C
102
}
330
C
100
AcDbDictionary
  3
STANDARD
350
18
  0
DICTIONARY
  5
19
102
{ACAD_REACTORS
330
C
102
}
330
C
100
AcDbDictionary
  0
DICTIONARY
  5
130
102
{ACAD_REACTORS
330
C
102
}
330
C
100
AcDbDictionary
  3
CEPSNTYPE
350
139
  3
DIMSTYLEDATA
350
14F
  3
FINGERPRINTGUID
350
13A
  3
HYPERLINKBASE
350
133
  3
INSUNITS
350
138
  3
LAYOUTDICT
350
135
  3
LWETCUNION
350
137
  3
PLOTSETDICT
350
136
  3
PSVPSCALE
350
13C
  3
PUCSBASE
350
13F
  3
PUCSORGBACK
350
145
  3
PUCSORGBOTTOM
350
141
  3
PUCSORGFRONT
350
144
  3
PUCSORGLEFT
350
142
  3
PUCSORGRIGHT
350
143
  3
PUCSORGTOP
350
140
  3
PUCSORTHOREF
350
13D
  3
PUCSORTHOVIEW
350
13E
  3
STYLESHEET
350
134
  3
TSTACKALIGN
350
131
  3
TSTACKSIZE
350
132
  3
UCSBASE
350
148
  3
UCSORGBACK
350
14E
  3
UCSORGBOTTOM
350
14A
  3
UCSORGFRONT
350
14D
  3
UCSORGLEFT
350
14B
  3
UCSORGRIGHT
350
14C
  3
UCSORGTOP
350
149
  3
UCSORTHOREF
350
146
  3
UCSORTHOVIEW
350
147
  3
VERSIONGUID
350
13B
  0
MLINESTYLE
  5
18
102
{ACAD_REACTORS
330
17
102
}
330
17
100
AcDbMlineStyle
  2
Standard
 70
     0
  3

 62
   256
 51
90.0
 52
90.0
 71
     2
 49
0.5
 62
   256
  6
BYLAYER
 49
-0.5
 62
   256
  6
BYLAYER
  0
XRECORD
  5
139
102
{ACAD_REACTORS
330
130
102
}
330
130
100
AcDbXrecord
 90
        0
  0
XRECORD
  5
14F
102
{ACAD_REACTORS
330
130
102
}
330
130
100
AcDbXrecord
1000
DSTYLE
1002
{
1070
   171
 70
     2
1070
   143
 40
25.4
1070
   274
 70
     2
1070
    41
 40
1.666666666666667
1070
   141
 40
0.09
1070
   271
 70
     4
1070
    43
 40
0.38
1070
    44
 40
0.18
1070
   278
 70
    46
1070
    42
 40
0.0625
1070
   147
 40
0.09
1070
    77
 70
     3
1070
   272
 70
     4
1070
    73
 70
     1
1070
   172
 70
     0
1070
    74
 70
     1
1070
   283
 70
     1
1070
   340
340
11
1070
   140
 40
0.18
1070
   284
 70
     0
1070
    78
 70
     0
1002
}
  0
XRECORD
  5
13A
102
{ACAD_REACTORS
330
130
102
}
330
130
100
AcDbXrecord
  1
{C0DBF6A7-C34A-4E9C-88AE-497283265260}
  0
XRECORD
  5
133
102
{ACAD_REACTORS
330
130
102
}
330
130
100
AcDbXrecord
  1

  0
XRECORD
  5
138
102
{ACAD_REACTORS
330
130
102
}
330
130
100
AcDbXrecord
 90
        4
  0
XRECORD
  5
135
102
{ACAD_REACTORS
330
130
102
}
330
130
100
AcDbXrecord
340
1A
  0
XRECORD
  5
137
102
{ACAD_REACTORS
330
130
102
}
330
130
100
AcDbXrecord
 90
    10781
  0
XRECORD
  5
136
102
{ACAD_REACTORS
330
130
102
}
330
130
100
AcDbXrecord
340
19
  0
XRECORD
  5
13C
102
{ACAD_REACTORS
330
130
102
}
330
130
100
AcDbXrecord
 40
0.0
  0
XRECORD
  5
13F
102
{ACAD_REACTORS
330
130
102
}
330
130
100
AcDbXrecord
340
0
  0
XRECORD
  5
145
102
{ACAD_REACTORS
330
130
102
}
330
130
100
AcDbXrecord
 10
0.0
 20
0.0
 30
0.0
  0
XRECORD
  5
141
102
{ACAD_REACTORS
330
130
102
}
330
130
100
AcDbXrecord
 10
0.0
 20
0.0
 30
0.0
  0
XRECORD
  5
144
102
{ACAD_REACTORS
330
130
102
}
330
130
100
AcDbXrecord
 10
0.0
 20
0.0
 30
0.0
  0
XRECORD
  5
142
102
{ACAD_REACTORS
330
130
102
}
330
130
100
AcDbXrecord
 10
0.0
 20
0.0
 30
0.0
  0
XRECORD
  5
143
102
{ACAD_REACTORS
330
130
102
}
330
130
100
AcDbXrecord
 10
0.0
 20
0.0
 30
0.0
  0
XRECORD
  5
140
102
{ACAD_REACTORS
330
130
102
}
330
130
100
AcDbXrecord
 10
0.0
 20
0.0
 30
0.0
  0
XRECORD
  5
13D
102
{ACAD_REACTORS
330
130
102
}
330
130
100
AcDbXrecord
340
0
  0
XRECORD
  5
13E
102
{ACAD_REACTORS
330
130
102
}
330
130
100
AcDbXrecord
 70
     0
  0
XRECORD
  5
134
102
{ACAD_REACTORS
330
130
102
}
330
130
100
AcDbXrecord
  1

  0
XRECORD
  5
131
102
{ACAD_REACTORS
330
130
102
}
330
130
100
AcDbXrecord
 90
        1
  0
XRECORD
  5
132
102
{ACAD_REACTORS
330
130
102
}
330
130
100
AcDbXrecord
 90
       70
  0
XRECORD
  5
148
102
{ACAD_REACTORS
330
130
102
}
330
130
100
AcDbXrecord
340
0
  0
XRECORD
  5
14E
102
{ACAD_REACTORS
330
130
102
}
330
130
100
AcDbXrecord
 10
0.0
 20
0.0
 30
0.0
  0
XRECORD
  5
14A
102
{ACAD_REACTORS
330
130
102
}
330
130
100
AcDbXrecord
 10
0.0
 20
0.0
 30
0.0
  0
XRECORD
  5
14D
102
{ACAD_REACTORS
330
130
102
}
330
130
100
AcDbXrecord
 10
0.0
 20
0.0
 30
0.0
  0
XRECORD
  5
14B
102
{ACAD_REACTORS
330
130
102
}
330
130
100
AcDbXrecord
 10
0.0
 20
0.0
 30
0.0
  0
XRECORD
  5
14C
102
{ACAD_REACTORS
330
130
102
}
330
130
100
AcDbXrecord
 10
0.0
 20
0.0
 30
0.0
  0
XRECORD
  5
149
102
{ACAD_REACTORS
330
130
102
}
330
130
100
AcDbXrecord
 10
0.0
 20
0.0
 30
0.0
  0
XRECORD
  5
146
102
{ACAD_REACTORS
330
130
102
}
330
130
100
AcDbXrecord
340
0
  0
XRECORD
  5
147
102
{ACAD_REACTORS
330
130
102
}
330
130
100
AcDbXrecord
 70
     0
  0
XRECORD
  5
13B
102
{ACAD_REACTORS
330
130
102
}
330
130
100
AcDbXrecord
  1
{FAEB1C32-E019-11D5-929B-00C0DF256EC4}
  0
ENDSEC
  0
EOF
